Is There Anybody Out There – Pink Floyd

Is There Anybody Out There
Pink Floyd
THE WALL
(Transposed for ukulele with high g)
a|---3---10---3---3-|---3---10---3---3-|---3---10--3---3-|---3---10---3---3-|
e|-3------------3---|-4------------4---|-5-----------5---|-4------------4---|
c|------------------|------------------|-----------------|------------------|
g|-----8----8-------|-----8----8-------|-----8----8------|-----8----8-------|
-
a|--3---10----3---10|---3---10----3---10|-----3---10---3---|---------3-6-3--|
e|3---------1-------|-------------------|---3------------3-|---3---3-------3|
c|------------------|-3---------2-------|-0----------------|-0---0----------|
g|----8---------8---|-----8---------8---|-------8----8-----|----------------|
-
a|-----3---10---3---|---------3-6----|
e|---3------------3-|---3---3--------|
c|-0----------------|-0---0----------|
g|-------8----8-----|----------------|
a|---3---10---3---3-|---3---10---3---3-|---3---10--3---3-|---3---10---3---3-|
e|-3------------3---|-4------------4---|-5-----------5---|-4------------4---|
c|------------------|------------------|-----------------|------------------|
g|-----8----8-------|-----8----8-------|-----8----8------|-----8----8-------|
-
a|--3---10----3---10|---3-6-3--10-6-3-6-|---3-6-3-10------|-----3---10---3--|
e|4---------3-------|-1-----------------|-1---------------|---3------------3|
c|------------------|-------------------|-------------3-2-|-0---------------|
g|----8---------8---|-------------------|-----------------|-------8----8----|
-
a|---------3-6-3---|-----3---10---3---|---------3-6----|
e|---3---3-------3-|---3------------3-|---3---3--------|
c|-0---0-----------|-0----------------|-0---0-------0--|
g|-----------------|-------8----8-----|----------------|

a|-----6----10-6---6-|-----6---10-8p6--|-----6---10----|-10-10p8-8p6-6p5-5-|
e|---6---6-------6---|---6---6---------|---6---6-------|-------------------|
c|-3-----------------|-2---------------|-0-------------|-------------------|
g|-------------------|-----------------|---------------|-------------------|
-
a|-----6----10-6---6-|-----6---10-8p6--|-----6---10----|---6-----5---------|
e|---6---6-------6---|---6---6---------|---6---6-------|-------------------|
c|-3-----------------|-2---------------|-0-------------|-7-----5-----------|
g|-------------------|-----------------|---------------|-------------------|
-
a|---3---10---3---3-|---3---10---3---3-|---3---10--3---3-|---3---10---3---3-|
e|-3------------3---|-4------------4---|-5-----------5---|-4------------4---|
c|------------------|------------------|-----------------|------------------|
g|-----8----8-------|-----8----8-------|-----8----8------|-----8----8-------|
-
a|--3---10----3---10|---3---10----3---10|-----3-6----6/10--|-10-12-13---14---|
e|3---------1-------|-------------------|---3--------------|------------12---|
c|------------------|-3---------2-------|-0----------------|------------11---|
g|----8---------8---|-----8---------8---|------------------|------------12---|
-
NB.
if you want to play with the recording,
you have to drop each string three half steps.
if you are haveing trouble reading the post,
copy and paste into word or notebook.
View Comments

2 Comments

  1. geoffaroo February 3rd, 2009 5:53 am

    Hello! I AM new to the ukulele and cannot work out what this means. can someone explain it to me.
    I reakon it is a finger on the corresponding fret of that string number? is this right – if so how do u
    know which ones u use in conjucntion with on another?

    a|—–3—10—3—|———3-6—-|
    e|—3————3-|—3—3——–|
    c|-0—————-|-0—0———-|
    g|——-8—-8—–|—————-|

  2. woodshed February 3rd, 2009 8:38 am

    geoffaroo: There’s a series of post about how to read ukulele tab here.

Got something to say?