The pixies – where is my mind

main bit
A|-7--7---4--4-4-4-4--3--3-3-3-3-4-4-4-4-4-4-
E|-4--4---4--4-4-4-4--4--4-4-4-4-5-5-5-5-5-5-  }x2
C|-4--4---4--4-4-4-4--3--3-3-3-3-4-4-4-4-4-4-
g|-4--4---6--6-6-6-6--------------------------
bridge
A|-7--7--3--3--4--4--3-3-3-3--4--------2--2--2-2-2-2-2-2-----
E|-4--4--4--4--5--5--5-5-5-5--4--------2--2--2-2-2-2-2-2-----
C|-4--4--3--3--4--4--4-4-4-4--4--------3--3--3-3-3-3-3-3-----
g|-4--4-----------------------6--------4--4--4-4-4-4-4-4-----
rif
A|-----------------------------------------
E|---4---4---4---4---4---4-----4-4-4-4----
C|-4---4---4---4---3---3---3/4------------
g|-----------------------------------------
View Comments

2 Comments

  1. Friday Links July 8th, 2011 1:00 pm

    [...] The Pixies on Uker Tabs. [...]

  2. Molly July 8th, 2011 9:09 pm

    Hey, is this site on facebook? I looked but couldn´t find…
    It would be nice to join a group or something on there and get updates on what songs you add etc.
    Just an idea.
    Also, i love this site, i just started playing the ukulele and i never expected to find something like this, you´re way better than all the other sites i´ve seen, both in design, teaching and in choice of songs.. I mean, Neutral Milk Hotel! Brilliant :D

Got something to say?