Beatles – I feel fine

This guy has a bunch of nice uke covers on youtube but is obviously inundated with tab requests to which he wont oblige.

I’ve made my best effort at this one for you

Intro
A|---10-10-8----12-10-8-10-8----|---8--8-6---10-8-6-8-6---|
E|---7-------10--------------10-|---5------8------------8-|
C|-7-7--------------------------|-5-5---------------------|
G|---7--------------------------|---5---------------------|

A|---3-3-1---3/5-3---3-----|---3-3-1---3/5-3---3-----|
E|---0-----3-------6---6-3-|---0-----3-------6---6-3-|
C|-0-0---------------------|-0-0---------------------|
G|---0---------------------|---0---------------------|

Verse
   Baby's good to me you know, she's happy as can be you know,
   C                                                         
A|-------1---------------------|-----1----------------------|
E|---0h3---1--0-1--0-1--0-1-0--|-0h3---1--0-1--0-1--0-1-0---|
C|-----------------------------|----------------------------|
G|-----------------------------|----------------------------|

  G       F      C
|-2-2-2/1-0-0-----------|
|-2-3-3/2-1-1---1-0-----|
|-2-2-2/1-0-0-3-----0---|
|-0-0-0---2-2-----------|

   I'm in love with her and I feel fine
   G                F              C

Verse 2
C
Baby says she mine you know
She tells me all the time you know
    G
She said so
G                F              C
I'm in love with her and I feel fine

Chorus
     I'm  so        glad  that      she's my little girl
   C                Em              F               G
A|-0h3-3-3--3-3-3-|-2--2-2--2-2-2-|--0--0-----0---|-2--2-2--2-2-2--|
E|-3---3-3--3-3-3-|-3--3-3--3-3-3-|--1--1--3------|-3--3-3--3-3-3--|
C|-0---0-0--0-0-0-|-4--4-4--4-4-4-|--0--0---------|-2--2-2--2-2-2--|
G|-0---0-0--0-0-0-|-0--0-0--0-0-0-|--2--2---------|-0--0-0--0-0-0--|


     She's so       glad  that      she's telling all the world
   C                Em              F               G
A|-0h3-3-3--3-3-3-|-2--2-2--2-2-2-|--0--0---------|-2--2-2--2-2-2--|
E|-3---3-3--3-3-3-|-3--3-3--3-3-3-|--1--1---------|-3--3-3--3-3-3--|
C|-0---0-0--0-0-0-|-4--4-4--4-4-4-|--0--0--2--0---|-2--2-2--2-2-2--|
G|-0---0-0--0-0-0-|-0--0-0--0-0-0-|--2--2---------|-0--0-0--0-0-0--|


Verse 3
That her baby buys her things, you know
He buys her diamond rings, you know
She said so
She's in love with me and I feel fine

Verse 3 repeat

Chorus

 

Buy The Beatles 1

View Comments

One Comment

  1. Art Crocker March 9th, 2012 7:47 pm

    Al,
    Thanks for doing tab on This one and Yellow. Its the motivation I needed to put more time in on the uke,

Got something to say?